ISO-10303-21;
HEADER;
FILE_DESCRIPTION (( 'STEP AP203' ),
    '1' );
FILE_NAME ('CTR10-063-K02-100-1 Òðóáà ãëàäêàÿ æåñòêàÿ ÏÍÄ d63 ÈÝÊ ÷åðíàÿ (100ì).STEP',
    '2016-05-17T06:40:19',
    ( '' ),
    ( '' ),
    'SwSTEP 2.0',
    'SolidWorks 2014',
    '' );
FILE_SCHEMA (( 'CONFIG_CONTROL_DESIGN' ));
ENDSEC;

DATA;
#1 = APPROVAL ( #75, 'UNSPECIFIED' ) ;
#2 = PERSON_AND_ORGANIZATION_ROLE ( 'creator' ) ;
#3 = CARTESIAN_POINT ( 'NONE',  ( 0.0000000000000000000, 0.0000000000000000000, 2000.000000000000000 ) ) ;
#4 = APPROVAL_PERSON_ORGANIZATION ( #96, #79, #43 ) ;
#5 = ORIENTED_EDGE ( 'NONE', *, *, #162, .F. ) ;
#6 = LOCAL_TIME ( 9, 40, 19.00000000000000000, #21 ) ;
#7 = PRODUCT_RELATED_PRODUCT_CATEGORY ( 'detail', '', ( #141 ) ) ;
#8 = FACE_OUTER_BOUND ( 'NONE', #161, .T. ) ;
#9 = DIRECTION ( 'NONE',  ( 0.0000000000000000000, 0.0000000000000000000, 1.000000000000000000 ) ) ;
#10 = LOCAL_TIME ( 9, 40, 19.00000000000000000, #44 ) ;
#11 = PERSON_AND_ORGANIZATION_ROLE ( 'creator' ) ;
#12 = EDGE_LOOP ( 'NONE', ( #153 ) ) ;
#13 = DATE_AND_TIME ( #69, #10 ) ;
#14 = COORDINATED_UNIVERSAL_TIME_OFFSET ( 3, 0, .AHEAD. ) ;
#15 = CALENDAR_DATE ( 2016, 17, 5 ) ;
#16 =( GEOMETRIC_REPRESENTATION_CONTEXT ( 3 ) GLOBAL_UNCERTAINTY_ASSIGNED_CONTEXT ( ( #34 ) ) GLOBAL_UNIT_ASSIGNED_CONTEXT ( ( #49, #134, #137 ) ) REPRESENTATION_CONTEXT ( 'NONE', 'WORKASPACE' ) );
#17 = APPROVAL_DATE_TIME ( #84, #79 ) ;
#18 = ORIENTED_EDGE ( 'NONE', *, *, #46, .F. ) ;
#19 = PLANE ( 'NONE',  #28 ) ;
#20 = APPLICATION_CONTEXT ( 'configuration controlled 3d designs of mechanical parts and assemblies' ) ;
#21 = COORDINATED_UNIVERSAL_TIME_OFFSET ( 3, 0, .AHEAD. ) ;
#22 = ORIENTED_EDGE ( 'NONE', *, *, #70, .T. ) ;
#23 = CARTESIAN_POINT ( 'NONE',  ( 27.90000000000000200, 0.0000000000000000000, 0.0000000000000000000 ) ) ;
#24 = DATE_AND_TIME ( #15, #6 ) ;
#25 = COORDINATED_UNIVERSAL_TIME_OFFSET ( 3, 0, .AHEAD. ) ;
#26 = DIRECTION ( 'NONE',  ( 1.000000000000000000, 0.0000000000000000000, 0.0000000000000000000 ) ) ;
#27 = CC_DESIGN_APPROVAL ( #1, ( #89 ) ) ;
#28 = AXIS2_PLACEMENT_3D ( 'NONE', #33, #116, #94 ) ;
#29 = DIRECTION ( 'NONE',  ( -0.0000000000000000000, -0.0000000000000000000, -1.000000000000000000 ) ) ;
#30 = AXIS2_PLACEMENT_3D ( 'NONE', #124, #119, #109 ) ;
#31 = EDGE_LOOP ( 'NONE', ( #73 ) ) ;
#32 = FACE_OUTER_BOUND ( 'NONE', #55, .T. ) ;
#33 = CARTESIAN_POINT ( 'NONE',  ( 0.0000000000000000000, 0.0000000000000000000, 0.0000000000000000000 ) ) ;
#34 = UNCERTAINTY_MEASURE_WITH_UNIT (LENGTH_MEASURE( 1.000000000000000100E-005 ), #49, 'distance_accuracy_value', 'NONE');
#35 = APPROVAL_DATE_TIME ( #24, #1 ) ;
#36 = EDGE_LOOP ( 'NONE', ( #5 ) ) ;
#37 = APPROVAL_ROLE ( '' ) ;
#38 = CC_DESIGN_PERSON_AND_ORGANIZATION_ASSIGNMENT ( #114, #11, ( #155 ) ) ;
#39 = DATE_AND_TIME ( #110, #169 ) ;
#40 = DATE_TIME_ROLE ( 'creation_date' ) ;
#41 = CALENDAR_DATE ( 2016, 17, 5 ) ;
#42 = FACE_OUTER_BOUND ( 'NONE', #31, .T. ) ;
#43 = APPROVAL_ROLE ( '' ) ;
#44 = COORDINATED_UNIVERSAL_TIME_OFFSET ( 3, 0, .AHEAD. ) ;
#45 = CIRCLE ( 'NONE', #57, 31.50000000000000000 ) ;
#46 = EDGE_CURVE ( 'NONE', #138, #138, #151, .T. ) ;
#47 = FACE_BOUND ( 'NONE', #36, .T. ) ;
#48 = APPROVAL ( #81, 'UNSPECIFIED' ) ;
#49 =( LENGTH_UNIT ( ) NAMED_UNIT ( * ) SI_UNIT ( .MILLI., .METRE. ) );
#50 = AXIS2_PLACEMENT_3D ( 'NONE', #160, #9, #77 ) ;
#51 = MECHANICAL_CONTEXT ( 'NONE', #65, 'mechanical' ) ;
#52 = PERSON_AND_ORGANIZATION ( #101, #157 ) ;
#53 = LOCAL_TIME ( 9, 40, 19.00000000000000000, #25 ) ;
#54 = DATE_AND_TIME ( #115, #163 ) ;
#55 = EDGE_LOOP ( 'NONE', ( #18 ) ) ;
#56 = DATE_TIME_ROLE ( 'classification_date' ) ;
#57 = AXIS2_PLACEMENT_3D ( 'NONE', #58, #102, #100 ) ;
#58 = CARTESIAN_POINT ( 'NONE',  ( 0.0000000000000000000, 0.0000000000000000000, 2000.000000000000000 ) ) ;
#59 = PERSON_AND_ORGANIZATION ( #101, #157 ) ;
#60 = APPLICATION_PROTOCOL_DEFINITION ( 'international standard', 'config_control_design', 1994, #20 ) ;
#61 = CC_DESIGN_APPROVAL ( #48, ( #155 ) ) ;
#62 = PERSON_AND_ORGANIZATION ( #101, #157 ) ;
#63 = EDGE_LOOP ( 'NONE', ( #68 ) ) ;
#64 = VERTEX_POINT ( 'NONE', #113 ) ;
#65 = APPLICATION_CONTEXT ( 'configuration controlled 3d designs of mechanical parts and assemblies' ) ;
#66 = DIRECTION ( 'NONE',  ( 0.0000000000000000000, 0.0000000000000000000, 1.000000000000000000 ) ) ;
#67 = DIRECTION ( 'NONE',  ( -1.000000000000000000, 0.0000000000000000000, 0.0000000000000000000 ) ) ;
#68 = ORIENTED_EDGE ( 'NONE', *, *, #70, .F. ) ;
#69 = CALENDAR_DATE ( 2016, 17, 5 ) ;
#70 = EDGE_CURVE ( 'NONE', #108, #108, #90, .T. ) ;
#71 = VERTEX_POINT ( 'NONE', #121 ) ;
#72 = APPROVAL_STATUS ( 'not_yet_approved' ) ;
#73 = ORIENTED_EDGE ( 'NONE', *, *, #46, .T. ) ;
#74 = FACE_OUTER_BOUND ( 'NONE', #63, .T. ) ;
#75 = APPROVAL_STATUS ( 'not_yet_approved' ) ;
#76 = APPROVAL_ROLE ( '' ) ;
#77 = DIRECTION ( 'NONE',  ( 1.000000000000000000, 0.0000000000000000000, 0.0000000000000000000 ) ) ;
#78 = SHAPE_DEFINITION_REPRESENTATION ( #143, #167 ) ;
#79 = APPROVAL ( #72, 'UNSPECIFIED' ) ;
#80 = AXIS2_PLACEMENT_3D ( 'NONE', #139, #150, #127 ) ;
#81 = APPROVAL_STATUS ( 'not_yet_approved' ) ;
#82 = EDGE_CURVE ( 'NONE', #64, #64, #45, .T. ) ;
#83 = CYLINDRICAL_SURFACE ( 'NONE', #111, 31.50000000000000000 ) ;
#84 = DATE_AND_TIME ( #41, #53 ) ;
#85 = CYLINDRICAL_SURFACE ( 'NONE', #166, 27.90000000000000200 ) ;
#86 = PERSON_AND_ORGANIZATION_ROLE ( 'design_owner' ) ;
#87 = CC_DESIGN_DATE_AND_TIME_ASSIGNMENT ( #13, #40, ( #155 ) ) ;
#88 = APPROVAL_DATE_TIME ( #54, #48 ) ;
#89 = SECURITY_CLASSIFICATION ( '', '', #135 ) ;
#90 = CIRCLE ( 'NONE', #80, 27.90000000000000200 ) ;
#91 = CC_DESIGN_APPROVAL ( #79, ( #146 ) ) ;
#92 = PERSON_AND_ORGANIZATION ( #101, #157 ) ;
#93 = COORDINATED_UNIVERSAL_TIME_OFFSET ( 3, 0, .AHEAD. ) ;
#94 = DIRECTION ( 'NONE',  ( 1.000000000000000000, 0.0000000000000000000, -0.0000000000000000000 ) ) ;
#95 = EDGE_LOOP ( 'NONE', ( #97 ) ) ;
#96 = PERSON_AND_ORGANIZATION ( #101, #157 ) ;
#97 = ORIENTED_EDGE ( 'NONE', *, *, #162, .T. ) ;
#98 = MANIFOLD_SOLID_BREP ( 'Áîáûøêà-Âûòÿíóòü1', #133 ) ;
#99 = DIRECTION ( 'NONE',  ( 1.000000000000000000, 0.0000000000000000000, -0.0000000000000000000 ) ) ;
#100 = DIRECTION ( 'NONE',  ( 1.000000000000000000, 0.0000000000000000000, 0.0000000000000000000 ) ) ;
#101 = PERSON ( 'UNSPECIFIED', 'UNSPECIFIED', 'UNSPECIFIED', ('UNSPECIFIED'), ('UNSPECIFIED'), ('UNSPECIFIED') ) ;
#102 = DIRECTION ( 'NONE',  ( 0.0000000000000000000, 0.0000000000000000000, 1.000000000000000000 ) ) ;
#103 = CC_DESIGN_SECURITY_CLASSIFICATION ( #89, ( #146 ) ) ;
#104 = APPLICATION_PROTOCOL_DEFINITION ( 'international standard', 'config_control_design', 1994, #65 ) ;
#105 = APPROVAL_PERSON_ORGANIZATION ( #136, #1, #37 ) ;
#106 = CC_DESIGN_PERSON_AND_ORGANIZATION_ASSIGNMENT ( #62, #2, ( #146 ) ) ;
#107 = DIRECTION ( 'NONE',  ( -1.000000000000000000, 0.0000000000000000000, 0.0000000000000000000 ) ) ;
#108 = VERTEX_POINT ( 'NONE', #23 ) ;
#109 = DIRECTION ( 'NONE',  ( 1.000000000000000000, 0.0000000000000000000, 0.0000000000000000000 ) ) ;
#110 = CALENDAR_DATE ( 2016, 17, 5 ) ;
#111 = AXIS2_PLACEMENT_3D ( 'NONE', #148, #126, #67 ) ;
#112 = FACE_OUTER_BOUND ( 'NONE', #12, .T. ) ;
#113 = CARTESIAN_POINT ( 'NONE',  ( 31.50000000000000000, 0.0000000000000000000, 2000.000000000000000 ) ) ;
#114 = PERSON_AND_ORGANIZATION ( #101, #157 ) ;
#115 = CALENDAR_DATE ( 2016, 17, 5 ) ;
#116 = DIRECTION ( 'NONE',  ( 0.0000000000000000000, 0.0000000000000000000, 1.000000000000000000 ) ) ;
#117 = ADVANCED_FACE ( 'NONE', ( #32, #156 ), #19, .F. ) ;
#118 = DIRECTION ( 'NONE',  ( 0.0000000000000000000, 0.0000000000000000000, 1.000000000000000000 ) ) ;
#119 = DIRECTION ( 'NONE',  ( 0.0000000000000000000, 0.0000000000000000000, 1.000000000000000000 ) ) ;
#120 = APPROVAL_PERSON_ORGANIZATION ( #125, #48, #76 ) ;
#121 = CARTESIAN_POINT ( 'NONE',  ( 27.90000000000000200, 0.0000000000000000000, 2000.000000000000000 ) ) ;
#122 = CC_DESIGN_PERSON_AND_ORGANIZATION_ASSIGNMENT ( #92, #128, ( #89 ) ) ;
#123 = ADVANCED_FACE ( 'NONE', ( #147, #74 ), #85, .F. ) ;
#124 = CARTESIAN_POINT ( 'NONE',  ( 0.0000000000000000000, 0.0000000000000000000, 0.0000000000000000000 ) ) ;
#125 = PERSON_AND_ORGANIZATION ( #101, #157 ) ;
#126 = DIRECTION ( 'NONE',  ( -0.0000000000000000000, -0.0000000000000000000, -1.000000000000000000 ) ) ;
#127 = DIRECTION ( 'NONE',  ( 1.000000000000000000, 0.0000000000000000000, 0.0000000000000000000 ) ) ;
#128 = PERSON_AND_ORGANIZATION_ROLE ( 'classification_officer' ) ;
#129 = EDGE_LOOP ( 'NONE', ( #22 ) ) ;
#130 = AXIS2_PLACEMENT_3D ( 'NONE', #3, #118, #26 ) ;
#131 = ORIENTED_EDGE ( 'NONE', *, *, #82, .T. ) ;
#132 = PLANE ( 'NONE',  #152 ) ;
#133 = CLOSED_SHELL ( 'NONE', ( #145, #117, #154, #123 ) ) ;
#134 =( NAMED_UNIT ( * ) PLANE_ANGLE_UNIT ( ) SI_UNIT ( $, .RADIAN. ) );
#135 = SECURITY_CLASSIFICATION_LEVEL ( 'unclassified' ) ;
#136 = PERSON_AND_ORGANIZATION ( #101, #157 ) ;
#137 =( NAMED_UNIT ( * ) SI_UNIT ( $, .STERADIAN. ) SOLID_ANGLE_UNIT ( ) );
#138 = VERTEX_POINT ( 'NONE', #159 ) ;
#139 = CARTESIAN_POINT ( 'NONE',  ( 0.0000000000000000000, 0.0000000000000000000, 0.0000000000000000000 ) ) ;
#140 = PERSON_AND_ORGANIZATION_ROLE ( 'design_supplier' ) ;
#141 = PRODUCT ( 'CTR10-063-K02-100-1 Òðóáà ãëàäêàÿ æåñòêàÿ ÏÍÄ d63 ÈÝÊ ÷åðíàÿ (100ì)', 'CTR10-063-K02-100-1 Òðóáà ãëàäêàÿ æåñòêàÿ ÏÍÄ d63 ÈÝÊ ÷åðíàÿ (100ì)', '', ( #51 ) ) ;
#142 = CARTESIAN_POINT ( 'NONE',  ( 0.0000000000000000000, 0.0000000000000000000, 2000.000000000000000 ) ) ;
#143 = PRODUCT_DEFINITION_SHAPE ( 'NONE', 'NONE',  #155 ) ;
#144 = CIRCLE ( 'NONE', #130, 27.90000000000000200 ) ;
#145 = ADVANCED_FACE ( 'NONE', ( #8, #47 ), #132, .T. ) ;
#146 = PRODUCT_DEFINITION_FORMATION_WITH_SPECIFIED_SOURCE ( 'ANY', '', #141, .NOT_KNOWN. ) ;
#147 = FACE_OUTER_BOUND ( 'NONE', #95, .T. ) ;
#148 = CARTESIAN_POINT ( 'NONE',  ( 0.0000000000000000000, 0.0000000000000000000, 2000.000000000000000 ) ) ;
#149 = DESIGN_CONTEXT ( 'detailed design', #20, 'design' ) ;
#150 = DIRECTION ( 'NONE',  ( 0.0000000000000000000, 0.0000000000000000000, 1.000000000000000000 ) ) ;
#151 = CIRCLE ( 'NONE', #50, 31.50000000000000000 ) ;
#152 = AXIS2_PLACEMENT_3D ( 'NONE', #165, #66, #99 ) ;
#153 = ORIENTED_EDGE ( 'NONE', *, *, #82, .F. ) ;
#154 = ADVANCED_FACE ( 'NONE', ( #112, #42 ), #83, .T. ) ;
#155 = PRODUCT_DEFINITION ( 'UNKNOWN', '', #146, #149 ) ;
#156 = FACE_BOUND ( 'NONE', #129, .T. ) ;
#157 = ORGANIZATION ( 'UNSPECIFIED', 'UNSPECIFIED', '' ) ;
#158 = CC_DESIGN_PERSON_AND_ORGANIZATION_ASSIGNMENT ( #52, #140, ( #146 ) ) ;
#159 = CARTESIAN_POINT ( 'NONE',  ( 31.50000000000000000, 0.0000000000000000000, 0.0000000000000000000 ) ) ;
#160 = CARTESIAN_POINT ( 'NONE',  ( 0.0000000000000000000, 0.0000000000000000000, 0.0000000000000000000 ) ) ;
#161 = EDGE_LOOP ( 'NONE', ( #131 ) ) ;
#162 = EDGE_CURVE ( 'NONE', #71, #71, #144, .T. ) ;
#163 = LOCAL_TIME ( 9, 40, 19.00000000000000000, #14 ) ;
#164 = CC_DESIGN_DATE_AND_TIME_ASSIGNMENT ( #39, #56, ( #89 ) ) ;
#165 = CARTESIAN_POINT ( 'NONE',  ( 0.0000000000000000000, 0.0000000000000000000, 2000.000000000000000 ) ) ;
#166 = AXIS2_PLACEMENT_3D ( 'NONE', #142, #29, #107 ) ;
#167 = ADVANCED_BREP_SHAPE_REPRESENTATION ( 'CTR10-063-K02-100-1 T¨ºñð óûðôúð  öõ¸ªúð  ¦=- d63 L¦¦ ¢õ¨ýð  (100ü)', ( #98, #30 ), #16 ) ;
#168 = CC_DESIGN_PERSON_AND_ORGANIZATION_ASSIGNMENT ( #59, #86, ( #141 ) ) ;
#169 = LOCAL_TIME ( 9, 40, 19.00000000000000000, #93 ) ;
ENDSEC;
END-ISO-10303-21;
